PDA

Просмотр полной версии : А может... Гитара?!?


____Neff Teka Smeg AEG Midea__
█████████████████████████████████
Телефоны X I A O M I
Телефоны и другие гаджеты XIAOMI по лучшим ценам для фаритчан)
iUfa: Ремонт техники Apple!
APPLEUFA.RU Ремонт любой сложности, аксессуары, переклейка стекол iPhone, iPad, Macbook!
CREDO94
03-02-2003, 07:44
Форум?
А может кто тут играет на гитаре?
Если играете, то пишите сюда.
Может какие новые аккорды, иль у кого есть вопросы.
Если что нибудь подобрали из нового, поделитесь с играющими.
Сверим, сравним.

xanadu
03-02-2003, 08:11
..aga... ipoyushie tozhe pishite syuda... mozh chem zamutim... kapellu naprimer...

...ya inogda vot brin'kayu na gitare... no pet' mne obl'sha nravica... zhalka v Ufe net lyudej reazdelyayushih moi muzykal'nye vzglyady... ya tak ih iskal... :( ...no blin... odni rokkery da mirtalyugi.... nihrena igarat' ne umeyut... a esli i umeyut, to ne vyhodya zagranicy svoih napravlenij... stremno!. ....nashel by ya teh, kto mozhet to chto hochu ya... my sdelali vse lyumeny s netumi vmeste vzyatyh... ved' u nas v UFE net ni odnoj normal'noj gruppy... odna lazha...

...karoche sorri za nesobrannye mysali, no vy karocha ponyali chto ya hotel skazat'...

Arslan
03-02-2003, 08:59
Кредо, ты что это, а? Муллы всегда запрещали игру на муз. инструментах и живопись. :D

Katomba
03-02-2003, 13:07
У меня такой же напряг, мало кто в россии любит и понимает музыку которую я люблю...
Просто еще не пришло время...люди не дозрели...

xanadu
03-02-2003, 22:09
...povedaj o svoih pristrastiyah...

vot ya naprimer RV lyublyu

Arslan
03-02-2003, 22:37
Товарищ, верь! Взойдет она, звезда пленительного счастья, и на обломках самовластья напишут наши имена. :D

xanadu
03-02-2003, 22:48
...nenada... poka budet polno POPsyar, budet zhiva i lyubimaya muzyka... etozh priyatno kogda ty govorish' chto tebe nravica kakojnit' tam Jay-Jay Johanson a na tebya smotryat kruglymi glazamai... govorya chto vpervye slyshat... ty im stavish' (daesh' proslushat' ego vesh')... u nih glaza esho bol'she stanovyatsya.... ini govoryat' da kak ty mozhesh' slushat' eto der'mo (eto v to vremya kogda ya znayu, chto etot samyj JJJ kak raz ta muzyka kotoraya ne vyzyvaet negativnyh emocij)... nu i etot chuvak il' chuvisha uhodut sebe p[roch, napervaya pod nos... Nu gde zhe vy devchenki... devchenki... devchenki...

xanadu
03-02-2003, 22:52
a mne esho nravica persni iz russkih staryh detskih fil'mov:vot vam neskol'ko moih lyubivmyh:

1.Prekrasnoe Daleko
2.Krylatye Kacheli
3.pesemka pro Olenya
4.Bremenskie muzykanty (shedevr!)
5.Pionerskie pesni
i esho kueva tucha

CREDO94
04-02-2003, 00:18

O! Арслан! ты ли это. давно не видались.
А где ты такое услышал что муллы запрешают игру на гитаре?
да еше и живопись?
може процитируешь?

ded pihto
04-02-2003, 07:47
Есть такой недостоверный (то есть есть какие-то сомнения, пояснения, конечно же не для тебя, CREDO) хадис:
При Пророке (сав) кто-то очень скверно играл на флейте и хз. Мухаммад сказал, что не следует ему играть на флейте.
Некоторые мухаддисы расшифровывают это вроде как вообще на музыкальных инструментах нельзя играть.

Вообще он сам не любил шумного веселья.
Но понимал, когда люди были веселы и трезво радовались жизни.
Вспомним, что Пророк (сав) и не смеялся хохотом, но часто улыбался.
Когда у него спросили:"О, Пророк, может и нам не следует смеяться?"- он этого не запретил, только сказал, что если бы сподвижники знали, то, что знает он они бы плакали.
Как видим, то, что касалось личных пристрастий хз. Мухаммада он относил только к себе.
Конечно, это сунна. Но не фард!

Arslan
04-02-2003, 09:22
Лови хадисы о живописи:

"В день Страшного суда Аллах накажет художников, творцов образов, потребовав от них невозможного: оживить свои творения."

"Поистине, не войдут ангелы в дом, в котором изображения".

"Тот, кто нарисовал картину, обременяет себя в Судный день тем, что не может сделать ее вечной, вдохнув душу в нее."

"Те, кто изготовляет изображения будут мучиться в Судный день.
Скажут им: "Оживите то, что вы изобразили".

Arslan
04-02-2003, 09:45
Лови хадисы о музыкальных инструментах:

"Повелел мне Аллах уничтожить все музыкальные инструменты, всех идолов, кресты и прочие соблазны невежества."

"Запретил мне мой Господь спиртное, азартные игры, барабан и уд"


Уд - струнный инструмент типа гитары, балалайки, мандолины, домры (прим. Arslan)


А вот слова имама Газали:

"Уши свои ты должен сохранить от прислушивания к новшеству (музыка, музыкальные инструменты, что отсутствовало во времена Пророка (Да благословит Его АЛЛАХ и приветствует), хуле за спиной кого-либо, неприличным словам, бесполезной чрезмерной болтовне, обсуждениям людских пороков. Потому что они даны для тебя АЛЛАХОМ только лишь для того, чтобы ты слушал ими слова ВСЕВЫШНЕГО АЛЛАХА, хадисы ЕГО Посланника (Да благословит Его АЛЛАХ и приветствует) и мудрые слова друзей ЕГО (Устазов, Шейхов, Праведников)."

CREDO94
05-02-2003, 23:03


Хлоп Хлоп Хлоп!!!


долго искал?

CREDO94
06-02-2003, 07:31
вы где?
никто не знает гитару?
поговорили бы.



А?

shot_USC
07-02-2003, 02:11
Вот как тебе сакзать?... Об этом-то, в общем, много не скажешь... Но если уж зашла тема, да смотрю ты так рвешься что бы кто-то что-то сказал, то я скажу.:)

Ну что, для начала, напишу ритм прикольной песни Ozzy Osbourne ... Now you see it (now you don't)... если кто не знает, послушайте, на альбоме Bark at the moon

Итак, по началу играем просто быстро переставляя... не глушим! Но не задерживаемся... за счет чего получиться мелодичное вступление в ритм:

G--5-4-2-7-5-7-7-7/9-----
D--5-4-2-7-5-7-7-7/9-----
A--3-2-0-5-3-5-5-5/7-----
E-------------------------

затем играем глуша как в HEAVY-METAL, легкой, но четкой, частой глушкой.

G-----9----9----9-7-7/9---------------
D-----9----9----9-7-7/9---------------
A-----7----7----7-5-5/7----7----5-----
E-00---00---00---------00---00---7-5

и опять без глушки... :)

G-5----7-7/9---7-5-4-2-7-5-7
D-5----7-7/9---7-5-4-2-7-5-7-
A------5-5/7---5-3-2-0-5-3-5-
E-----------------------------

Вот... тем самым закольцовываем ритм... :)

Это, значит Ozzy...

Еще, очень классный ритм есть у Rammstein - Asche Zu Asche ... Для начала разберемся с таблатурой:

D---------p----------7------------8--------7-----5--------
A-----5-----2--------7------------8--------7-----5---------
E-----3-----0--0--0--5--0--0--0--6--0--0--5--0--3--0--0--

Как играть? ... В общем, рекомендую играть, беря рифф, на барэ. Затем, во время ритма, слегка приподнимаем указательный палец., тем самым освобождая шестую струну... затем с силой возвращаем, что дает еффект небольшого рева... В то время, как указательный палец приподнят, ритм продолжается... мезинец и безимянный пальцы глушат соответственно 4-ю и 5-ю струны во время скольжения... тем самым обеспечивая звук только шестой струны... (в местах, где игратся только 6-ая). Как ты наверное догадался, это все упрощает скольжение по грифу гитары.

Если играть так, как я описал, можно выбрать ритм даже более быстрый и в любом случае получиться оччень мелодично! При этом, можно не беспокоиться и чесать ритм по трем струнам... звучать будут все равно только те, которые нужны. :)

Что еще?... хм.. вот, мне конечно альбом Mutter у Rammstein не очень нравиться... Sehnsucht перепрыгнуть не удалось.. и все же, думаю привести ритм для Links-2-3-4...

D------2-------2-------2---|--5/7--8--|
A------2-------2-------2---|--5/7--8--|
E-0-0-0-0-0-0-0-0-0-0-0-0-|--3/5--6--|

Это основная тема... во время всего ритма 4-ая и пятая струны отчаянно глушатся... или не играются вообще... последний вариант играю я... т.е. я просто не извлекаю звуки на этих струнах, в местах, где играется только 6-ая. Но обязательно!!! извлекая там, где указал явно. :)

теперь припев, если так можно сказать:

D--2-2-2-2--5-5-5-5--7-7-7-7--------8--
A--2-2-2-2--5-5-5-5--7-7-7-7--------8--
E--0-0-0-0--3-5-5-5--5-5-5-5----55556--

Тут все понятно, играется без явной глушки... но не смешивая ноты!... четко деля их. Для красоты можно все же немного, незаметно глушить... или чесать с остервенением, но медленно. )

Ну и в последнем припеве играется без примочки... просто на акустике:...

D------2-------2-------2----|--5/7--8--|
A------2-------2-------2----|--5/7--8--|
E--x-x-0-x-x-x-0-x-x-x-0-x--|--3/5--6--|

И вот... под конец решил написать еще кое-что. :) Du hast:

D-----7--\--5---------------------7--5--------------------
A-----7--\--5--2--2--2--2--2--2--7--5--2--2--2--2--2--2---
E-----5--\--3--0--0--0--0--0--0--5--3--0--0--0--0--0--0---

Это вступление и, в общем - основа ритма.

далее, по песне

D---5--/--7--------------------
A---5--/--7--7--7--7--7--7--7--
E---3--/--5--5--5--5--5--5--5--

и припев... тока надо добавить самодеятельности.. переставлять на слух.. я не считал чтоное число.. просто линию ритма запомните.. потом возврат и по новой...

D---7--5-----------------------5--/--7--------------------
A---7--5--2--2--2--2--2--2----5--/--7--7--7--7--7--7--7--
E---5--3--0--0--0--0--0--0----3--/--5--5--5--5--5--5--5--

D---7--/--10----------------------------10--9--------------------
A---7--/--10--10--10--10--10--10--10--10--9--9--9--9--9--9--9--
E---5--/--8---8----8----8---8---8---8---8--7--7--7--7--7--7--7--

и возвращаемся... там еще вопль такой "НАЙН!!!" :)... тут все по слуху.. но основу я написал... т.е. далее действуем, как подскажет ухо! У кого слух круче, тот, соответственно и круче играть буит. :)

Потом играет синт под слова "Ду хаст"... затем, когда он грит, типа "НО Я НЕ СЛЫШУ ТЕБЯ!!" начинается самое классное!! :)

D-7-5-xxxxxxxxxx--7-5-xxxxxxxxxx--5-7-xxxxxxxxx--5-7-xxxxxxxxx-
A-7-5-xxxxxxxxxx--7-5-xxxxxxxxxx--5-7-xxxxxxxxx--5-7-xxxxxxxxx-
E-5-3-0-0-0-0-0--5-3-0-0-0-0-0--3-5-5-5-5-5-5--3-5-5-5-5-5-5-

D-7-10--xxxxxxxxxxxxxx--10--9-xxxxxxxxxxxxx-
A-7-10--xxxxxxxxxxxxxx--10--9-xxxxxxxxxxxxx-
E-5-8---8-8-8-8-8-8-8--8---7-7-7-7-7-7-7-7-

вот, затем вновь повторяем эту байду, тока уже при поддержке ударных... и начинаем колбасить уже со словами...

Вот, все должно получитсья очень красиво...

P.S.> Важно понимать, что все вышеописанное будет звучать только при использовании звукоискажателей для электрогитар или акустических гитар со звукоснимателем! Т.е. если у вас просто акустическая гитара, то вам не стоит мучаться, читая все, что описано выше. :)

И еще, у меня все рифы выгляжели как надо.. т.е. я тут долго редактировал, подгонял, чтобы на экране выглядело как надо.. если у кого-то что-то косячит - пишите, пришлю мылом.

---------------------------------
С уважением, shot_USC

shot_usc@mail.ru
usc_ufa@mail.ru

CREDO94
07-02-2003, 05:17
спасибо, но вот только я не понял последнего.
как это??? всё это будет звучать лишь при использовании звукоискажателей? примочка значит говоришь?
или... акустика со звукоснимателем? а разве это одно и тоже?



а слушай, ты как я понял игрок?
с Нирваны много чего играешь?

shot_USC
08-02-2003, 01:47
Гыг... :) Я сказал следующее - "...будет звучать только при использовании звукоискажателей для электрогитар или акустических гитар со звукоснимателем...". Правильно? Ну так вот, все это озачает, что нужно использовать звукоискажатель... или примочку (в простонароде). Но чтобы использовать примочку, нужно иметь либо электрогитару, либо акустическую гитару со свукоснимателем! :) Т.е. звукосниматель снимает звук с вибрирующих струн акустической гитары, а затем направляет весь поток в звукоискажатель, после чего, уже перегруженный звук идет на усилок. :)

Не знаю конечно, на сколько хорошо играть на акустике со звукоснимателем, но хочу сказать - если уж играть то, что я буду писать, то только на электрогитаре... лучше на электро-ритм-гитаре, то бишь с Хамбекером (тип звукоснимателя... двухкатушечник)

Ладно... вроде бы все по этому вопросу... :)

-------------------------------------
С уважением, shot_USC

shot_usc@mail.ru
usc_ufa@mail.ru

shot_USC
09-02-2003, 01:00
Нирваны?... честно скажу - нет. Я, как бы тебе сказать, не фанат гранжа... но кое-что, конечно знаю... из Нирваны. :)

Я думаю то, что я тут напишу ты и сам знаешь. ;)

Rape me:

Вначале идет партия на акустике+бас.

акустическая партия:

D--2-2-P-2-2--2-2-P-0-0--
A--0-0-P-3-3--2-2-P-2-2--
E--0-0-P-0-0--0-0-P-3-3—

вот такая простая партия на трех басовых струнах гитары. P - это переход... т.е. переход включает быструю чесалку при переходе. Ну послушай внимательно и поймешь о чем я... самое главное, что ЧЕС не прекращается во время перехода, нужно лишь приглушить на пару мгновений своболдыми пальцами левой руки все три струны, чтобы получился щелкающий звук - так красивше просто. :)

Затем идет опять же партия на акустке+слова. :) .. (ща, погоди, гитару возьму, что-то я в уме запутался с таблатурой)

e-----0-|--------0-----|------0---|--------3------|---
B-----1-|------------1-|------0---|------------3--|---
G-----2-|-----0--------|------1---|-----0---------|---
A-----2-|--------------|------2---|---------------|---
D-0-----|-3------------|--2-------|----------------|---
E------- |--------------|----------|--3------------|---

вот, это примерно... у меня тут кое чем обрасла эта партия... но блин, это если писать - не врубишься... а так, чситай тема ясна, и отделать, довести до красоты можно самому. :)

затем ритм партия, соот-но через дисторшн-гранж:

это во время припева:

A------7---7------|-X-X-X-X-10-10---|
D------7---7------|-X-X-X-X-10-10---|
E------5---5------|-8-8-8-8-8--8-----|

далее

A------2---2------|-X-X-X-X-5-5-----|
D------2---2------|-X-X-X-X-5-5-----|
E------0---0------|-3-3-3-3-3-3------|

затем играть акустическую партию, только как вступление:

D--2-2-P-2-2--2-2-P-0-0--
A--0-0-P-3-3--2-2-P-2-2--
E--0-0-P-0-0--0-0-P-3-3—

затем идет опять припев и начинается совершенно иной ритм:

A---6-6-6-6-6-6---|--2-2-2----------|
D---4-4-4-4-4-4---|--0-0-0--3-2-1-0-|

продолжение

A---6-6-6-6-6-6---|--2-2-2----------|
D---4-4-4-4-4-4---|--0-0-0--3-2-1-0-|

и в конце такая красивая плямба:

D-3-3-3-3-3-3-3-3-|-5-5-5-5-5-5-5-5-|
E-1-1-1-1-1-1-1-1-|-3-3-3-3-3-3-3-3-|

затем тянем звук

A----2~-
D----2~-
E----0~-

и по слуху начинаем вновь ту байду, что была на вступлении. :)


Вот, это Rape me Нирваны :)

Ну и конечно, то что сразу в голову пришло, Come as you are:)

тут все просто...

-----------0--0----------2-------
--0-0-1-2---2---2-2-1-0---0-0--

Желательно играть на D и A.. но все зависит от строя струн вашей гитары (настройки). :)

Ритм:

G-----------5-------------------------
A---7-----5 5 5-----2---------5------
D---7---3------------2------5 5 5---
E-5---5------------0---0-3-----------

Вот... ну если кто не врубился, пишу таким образом:
A5,,,C5,,,E5,,,G5
далее по слуху....

бридж:
C#5...A5...G5...F#5...F5...G#5...E5...G5...F#5...F5

----------------------------------
С уважением, shot_USC

shot_usc@mail.ru
usc_ufa@mail.ru

CREDO94
09-02-2003, 07:37
[QUOTE]Послано shot_USC
[B]

Гыг... :) Я сказал следующее - "...будет звучать только при использовании звукоискажателей для электрогитар или акустических гитар со звукоснимателем...". Правильно? Ну так вот, все это озачает, что нужно использовать звукоискажатель... или примочку (в простонароде). Но чтобы использовать примочку, нужно иметь либо электрогитару, либо акустическую гитару со свукоснимателем! :) Т.е. звукосниматель снимает звук с вибрирующих струн акустической гитары, а затем направляет весь поток в звукоискажатель, после чего, уже перегруженный звук идет на усилок. :)

Не знаю конечно, на сколько хорошо играть на акустике со звукоснимателем, но хочу сказать - если уж играть то, что я буду писать, то только на электрогитаре... лучше на электро-ритм-гитаре, то бишь с Хамбекером (тип звукоснимателя... двухкатушечник)

все пнятно, и зачем так подробно расписывать?
особенно что такое звукосниматель, у меня у самого дома лежит акустика со встроеным звукоснимателем.
конечно не пробовал к ней примочку подключать.

а у тебя что за гитара? если есть (электро)

CREDO94
09-02-2003, 07:46
слушай я что то не совсем догоняю твое написание аккордов.


«Рэйп ми» я знаю, но во на бридже не понял, что значит C#5... ???

CREDO94
09-02-2003, 07:52
и еше попробуй Rape me

на вот таких:


Am C E G

так даже получше, но ты все же обьасни свои аккорды, не понимаю я таких.

shot_USC
10-02-2003, 03:17
:)

D--2-2-P-2-2--2-2-P-0-0--
A--0-0-P-3-3--2-2-P-2-2--
E--0-0-P-0-0--0-0-P-3-3—


Это и есть Am, C, E, G на Басовых струнах, только описано мной по привычке в виде ритм партии… :)

т.е.
Am:
e--0--
B--1--
G--2--
D--2--
A--0--
E--0—

C:
e—0--
B—1--
G—0--
D—2--
A—3--
E—0—

E:
e—0-
B—0--
G—1--
D—2--
A—2--
E—0—

G:
e—3--
B—3--
G—0--
D—0--
A—2--
E—3--

Вот… это по поводу Rape me

Здесь слегка исправлено… :) Я там, в прошлом мессадже малость накосячил… гроссмейстер был пьян(с)… Я серьезно был малость не в здравом рассудке… затуманенный разум и т.п… вчера я был дома… вчера я был пьян…


Теперь по поводу Come as you are… В бридже был неясен аккорд С#5. Поясняю. )

С5, как известно так выглядит:

e—0--
B—0--
G—6--
D—6--
A—4--
E—0—

А знак # означает смещение к основанию, по ладам… верно?:)
Так и получается, что C#5 выглядит так:

e—0--
B—0--
G—7--
D—7--
A—5--
E—0—

Кстати, там где «0», желательно звук не извлекать… на мое субъективное мнение… но вообще-то, некоторые извлекают и ничуть при этом не страдают.. хотя, конечно, это так, если играть без дисторшна… :)

---------------------------
С Уважением, shot_USC

shot_usc@mail.ru
usc_ufa@mail.ru

shot_USC
10-02-2003, 03:34
Да... есть... две электро-гитары... одна ритм, т.е. , повторюсь, с Хамбекером, другая соло... Соло-гитара как бы тоже моя, но играю на ней не я... И еще одна акустика.

Вот... в общем, такие пироги... сейчас уже хорошо, а еще совсем недавно, помню, у меня был единственный электрический зверь, отечественного производства... :) не считая акустики, конечно... та сама по себе... всегда была и будет...

---------------------------
С увжением, shot_USC

shot_usc@mail.ru
usc_ufa@mail.ru

shot_USC
10-02-2003, 03:57
Если кому не влом, попробуйте одно из первых наших творений:)... Соло приводить не буду, т.к. я его не помню... да и не моя это задача, соло запоминать... а вот ритм я приведу... если у кого нет электро или акустики со звукоснимателем, не печальтесь, она звучит даже на акустике.. рпавда, как ни крути - кастрированно. :):

Итак, вступление и основная тема:


D--4~sl-7~sl-9~--4~sl-7~sl-10-/-9-P
A--4~sl-7~sl-9~--4~sl-7~sl-10-/-9-P
E--2~sl-5~sl-7~--2~sl-5~sl-8--/-7--P

D--4~sl-7~sl-9~--4~~-4-P-4-P-4-
A--4~sl-7~sl-9~--4~~-4-P-4-P-4-
E--2~sl-5~sl-7~--2~~-2-P-2-P-2-

D--4~sl-7~sl-9~--4~sl-7~sl-10-/-9-P
A--4~sl-7~sl-9~--4~sl-7~sl-10-/-9-P
E--2~sl-5~sl-7~--2~sl-5~sl-8--/-7--P

D--4~sl-7~sl-9~sl--4~~~~~-
A--4~sl-7~sl-9~sl--4~~~~~-
E--2~sl-5~sl-7~sl--2~~~~~-

затем вступает бас... потом врубается чуть измененный ритм:

D--2-5-7-2-5-8-/-7-2-5-7-2~--2-2-2-2-5-7-2-5-8-/-7-2~
A--2-5-7-2-5-8-/-7-2-5-7-2~--2-2-2-2-5-7-2-5-8-/-7-2~

Поясняю.. там, где sl делаем слайд к описанному звуку. Так, чтобы гитара звучала. Где ~ это вроде видбато, тока мы должны в этом месте усиливать звук... для того, чтобы слайд получился красивым... И еще, / означает звук, как бы сказать, на одном звуке чтоли... блин. ну вощим резкий, четкий переход, так чтобы слилось в единый переходящий звук. )

В общем, все просто и довольно драйвово... :)

-----------------------------
С уважением, shot_USC

shot_usc@mail.ru
usc_ufa@mail.ru

shot_USC
10-02-2003, 04:54
Недавно как раз играли две песни Rammsein... [Rammsetin] и [Herzeleid]

Herzeleid

Вообще простая, галвное - словить, что называется ЧЕС :)

Main Riff
A|-4-4-4--4-4-4-4-|
E|-2-3-2--2-3-3-2-|

Chorus
A|-2-4--2-4--4-5-5-4-------|
E|-0-2--0-2--2-3-3-2-2-2-2-|

Есть место понижения тональности... его сразу заметно

дважды:
D|-4-4-4--4-4-4-4-|
A|-2-3-2--2-3-3-2-|

опять дважды
D|-3-3-3--3-3-3-3-|
A|-1-2-1--1-2-2-1-|

и по нововой.... :) сольняк там еще есть красивый.. довольно-таки... но я его не знаю.. ((...

Теперь Rammstein:

G---------9--/--10--------9--/--10--------9--/--10--10--\--9--|
D---------9--/--10--------9--/--10--------9--/--10--10--\--9--|
A---------7--/--8---------7--/--8---------7--/--8---8---\--7--|
E---0--0------------0--0------------0--0----------------------|

G------9--/--10--------9--/--10--------9--/--10--10--\--9--|
D------9--/--10--------9--/--10--------9--/--10--10--\--9--|
A------7--/--8---------7--/--8---------7--/--8---8---\--7--|
E---0------------0--0------------0--0----------------------|

G---9--/--10--------9--/--10--------9--/--10--10--\--9--|
D---9--/--10--------9--/--10--------9--/--10--10--\--9--|
A---7--/--8---------7--/--8---------7--/--8---8---\--7--|
E-------------0--0------------0--0----------------------|

G---/--10--------9--/--10--------9--/--10--|
D---/--10--------9--/--10--------9--/--10--|
A---/--8---------7--/--8---------7--/--8---|
E----------0--0------------0--0------------|

D|--5--/--2--x--x--x-------------x--x--x--5--/--2--|
A|--5--/--2--x--x--x-------------x--x--x--5--/--2--|
E|--3--/--0--x--x--x-------------x--x--x--3--/--0--|

Мля... заепся писать.. :))))

короче, все ясно... и красиво! :)

-----------------------------
С уважением, shot_USC

shot_usc@mail.ru
usc_ufa@mail.ru

CREDO94
11-02-2003, 02:16
[QUOTE]Послано shot_USC
[B]

Да... есть... две электро-гитары... одна ритм, т.е. , повторюсь, с Хамбекером, другая соло... Соло-гитара как бы тоже моя, но играю на ней не я... И еще одна акустика.

Вот... в общем, такие пироги... сейчас уже хорошо, а еще совсем недавно, помню, у меня был единственный электрический зверь, отечественного производства... :) не считая акустики, конечно... та сама по себе... всегда была и будет...

Урал наверно, тоже через это прошел.

shot_USC
18-02-2003, 01:41
Послано CREDO94

Э... а я не понял, у тебя же акустика со звукоснимателем, как ты говорил?:)

Нет, у меня вроде не урал была... та, блин, дура такая была... но поизящнее урала... :) Короче, куй знает... но что мне в ней нравилось, так это полная внутренняя обмотка профодов и основных узлов какой-то фигней, типа фольги... посему поводу звук был почти чистый... но, блин, кожа оставалась на ладах... :)

--------------------------
С уважением, shot_USC

shot_usc@mail.ru
usc_ufa@mail.ru

CREDO94
19-02-2003, 03:01


ну да. акустика, со звукоснимателем, да даже не звукосниматель, громко сказано. с микрофоном, видал наверно на эстрадных гитарах бывает у основания грифа дырка, для микрофона.
кожа говоришь на ладах?
дык после Урала тоже самое.
у нас еще гитарка была самодельная, вообше супер сделали.
не отличишь, мастер делал.
так та ничем от немцких не отличалась.
слушай, ты в группе играешь?
если да, то в какой?
как я понял ты в основном рамштейн гоняешь?

shot_USC
20-02-2003, 01:27
понятно... :)

да... играю... раньше, если так можно выразиться, играл в "offtopic"... теперь вот мы без названия опреденного пока... т.к. состав конкретно поменялся а старое название ассоциировалось только со старым составом. Сменилась и тематика. Но название теперь уже не суть... Проблма в том, что у нас и вокалист больше не поет, по причине нехватки времени... так что ищем вокалиста.

Играю я, значит, на ритме. У нас типа разделение, как в AC/DC, соло и ритм играются отдельными членами команды. Благодаря этому возможно исполнять соло на фоне ритма.

Вообще-то, на счет Rammstein, это ты верно заметил. :) Все дело в том, что мы делаем Кавер-версии на песни Rammstein. Есть по русски, как то - Tier. Все дело в том, что играв умеренный депрессняк-полуиндастриал, столкнулись с такой проблемой, что наша музыка нам казалась чем-то похожей на Rammstein. Ну и как-то выпив пивка, я уломал клавишника вырезать из песни или подобрать самому клавишную партию для песни Du hast. Он сделал и притащил на следующую репетицию. За это время я успел договориться и с ударником попробовать наиграть ударную партию du hast на следующей репетиции... типа для разогреву, просто попробовать.. интересно типа стало, как получиться. :) Ну а сам дома отдрочивал ритм-партию. Собралися значиться, клавишник с ударником минут 10 подстраивались друг под друга... ну а потом: заиграла вступительная миди, простукал ударник и затем все втроем взорвали комнату интром du hast. Надо сказать, что тогда я чуть не кончил от счастья, т.к. являюсь фанатом Rammstein. Соло, что сидел все это время посмеиваясь, вскочил и через полчаса мы уже играли все в две гитары+клав.+ударные, бас правда пришлось эмулировать клавишными. т.к. басиста небыло уж на ту пору.

Ну так вот, всем нам это зверски понравилось, тем более орать всем троим DU!!! DU HAST!!! DU HAST MICH!!... и т.д., всю песню... правда я и соло орали только Du hast и Nein!!!.. :) Но все равно, так нас всех тогда приколбасило, что мы решили сделать пару кавер-версий на Rammstein. Вот и играли разичные песни, выбирая наиболее подходящие, которые хорошо звучали и по русски и по немецки.

В общем, поэтому... А вообще, есть вещи, не имеющие ничего общего с Rammstein.

А я же кстати приводил тут ритм к одной из самых ранних песен...

-------------------------------
С уважением, shot_USC

shot_usc@mail.ru
usc_ufa@mail.ru

shot_USC
23-02-2003, 00:01
Я не хочу! (не хочешь - не верь мне)

3|-------------------------------7~~--|
4|---9--7--12--10---------------------|
5|---7--5--10--8---7-8-7h0-5~~--------|
6|------------------------------------|


4|---9--7--12--10----------------|
5|---7--5--10--8---7-8-7h0-5~~---|
6|-------------------------------|


куплет:

3|-------7------------------5------------------------3----|
4|-------7--7--7--7--7--7--5--5--5--5--5--5--5--5--3-3--|
5|-------5--5--5--5--5--5--3--3--3--3--3--3--3--3--1-1--|

3|---------------------2------------------------7---------|
4|--3--3--3--3--3--3--2--2--2--2--2--2--2--2--7---------|
5|--1--1--1--1--1--1--0--0--0--0--0--0--0--0--5---------|

3|-----------------------------5------------------3----|
4|----------7--7--7--7--7--7--5--5--5--5--5--5--3--3-|
5|----------5--5--5--5--5--5--3--3--3--3--3--3--1--1-|

3|---------------------2---------------------------7------|
4|--3--3--3--3--3--3--2--2--2--2--2--2--2--2--2--7------|
5|--1--1--1--1--1--1--0--0--0--0--0--0--0--0--0--5------|


ода (на выкрике после куплета)
3|--------------------------------|
4|---9--7--12--10-----------------|
5|---7--5--10--8---7-8-7h0-5~~~---|

затем:
4|---9--7--12--10----------------|
5|---7--5--10--8---7-8-7h0-5~~~--|

перед привпевом:
3|-------------------------------------------------9--|
4|-9--7--12--10-----------------------------------9--|
5|-7--5--10--8---7-8-7h0-5--7-8-7h0-5--7-8-7h0---7--|

собственно, припев:
4|--9--9--9--9--9--9--5-----|
5|--7--7--7--7--7--7--3-----|
6|--------------------------|

4|--5--5--5--5--5--5--------|
5|--3--3--3--3--3--3--7-----|
6|--------------------5-----|

4|--------------------------|
5|--7--7--7--7--7--7--5-----|
6|--5--5--5--5--5--5--3-----|

3|------------------------9--|
4|-----------4--4--4--4--9--|
5|--5--5--5--2--2--2--2--7--|
6|--3--3--3-----------------|

4|--9--9--9--9--9--9--5-----|
5|--7--7--7--7--7--7--3-----|
6|--------------------------|


4|--5--5--5--5--5--5--------|
5|--3--3--3--3--3--3--7-----|
6|---------------------5-----|

концовка припева:
3|-------------------------------------------------9---|
4|-----------4--4--4--4--5--5--5--5--7--7--7--7--9---|
5|--5--5--5--2--2--2--2--3--3--3--3--5--5--5--5--7---|


Я не верил, что я мертв,
Я слышал брань и плачь!
Видел как над телом там внизу
Шаманил старый врач...
Я плыл в черной пустоте,
Я обретал покой!
Свет в конце тонеля,
Как магнит тянул к себе дух мой...

Hе хочешь - не верь мне! (тот самый выкрик)

Свет был ярче тысяч солнц,
Я понял - это бог!
Hе бездушный идол,
А живой сверкающий поток!
Свет заставил вспомнить всех,
С кем дрался и грешил!
Он заставил вспомнить,
Каждый шаг бунтующей души...

Hе хочешь - не верь мне!

припев:
Я нехочу той пустоты,
Я нехочу той чистоты,
Я нехочу той высоты,
Я не прошел всего пути!!!
Я нехочу той высоты,
Я нехочу той чистоты,
Я нехочу той пустоты,
Нет!!!!

Я звал друга, но никто
Не слышал голос мой,
Я рванул сквозь стены,
Но никто не бросился за мной.
Там внизу горел асфальт
От сбитых с неба звезд.
Мне хотелось ветра
Чтобы бил наотмашь и насквозь.

Не хочешь - не верь мне!

припев.

-----------------------
С уважением, shot_USC

shot_usc@mail.ru
usc_ufa@mail.ru

shot_USC
23-02-2003, 11:26
Это, в общем, не проблема. Два варианта развития сценария:

1) Во многих школах, в подвалах, послеучебное время репетируют группы. И мы репетировали. От 50р. за раз. Как договоришься еще... можно договориться даже с их оборудованием (колонки и т.п.) Как пример - репетировали в 44-ой после 8-ми вечера. Никого там уж небыло. Товарищ мой репетировал в автотранспортном. Там же, кстати, репетируют Церепаха Торчила. В общиим, по моему самый идеальный вариант. Остается только выбрать район, чтобы всем одинаково близко было и в этом районе выбрать какую-нить школу в качестве базы. После 7-ми или 8-ми там все равно наверное никого, кроме администрации не бывает. Реч идет о подвальных помещениях.

2) Снять старенький, одноэтажный домик или комнату в этом домике, в сипайлово или на Карла Маркса/Свердлово. Вариант не очень... Но слышал и о таком выходе из положения. Выходит вроде как даже чуть дешевле. Но это еще какой домик найдешь... может дешевле, а может и дороже. Почему говорю? - потому что играли на ул. Свердлова, на хате у ударника. Скажу сразу - изоляция в таких старых домах - дай Боже...

3) В конце-концов, летом, у меня дома... Т.к. все соседи - одни пенсионеры и молодеж. Так как старое поколение уедет отдыхать за город, беспокоиться не за что, т.к. молодеж нас поймет. Вариант плох тем, что до лета еще как до Китая ....

-----------------------------
С уважением, shot_USC

shot_usc@mail.ru
usc_ufa@mail.ru

Sela
02-09-2003, 18:18
Люди...жутко хочу играть на гитаре,вот только незнаю куда ходить...

ASA
02-09-2003, 18:36
ты туда нэ хади.. ты суда хади.. снег башка пападёт сапсэм мёртвый буиш! (с)

02RU
05-12-2003, 09:52
Ищу девушку с музыкальным образованием для обучения девочки на дому игре на 6-ти струнной гитаре. Дом около остановки "Театр "Нур". Позвоните 8-917-43-36-352.

CREDO94
11-12-2003, 01:30
Ты в музыкальное училище обратись. Или как там в Уфе щкола исскуств.

Рустик с севера
25-05-2004, 14:41
Кто любит играть на гитаре?

sir A. Fergusson
25-05-2004, 14:50
Когда испанцы придумывали гитару они думали о женщине, а о чём думали русские, когда придумывали балалайку?

Кто знает, почему не работает АмДм.ру?

Sikel
25-05-2004, 23:57
И к чему этот вопрос приведет...

Nameless
07-06-2004, 12:34
Хреново ты знаешь. Нет такой музыки, которая не может вызывать негатива. Эта - вызывает. Просто потому, что пустышка. Осмысленности ноль.

Флейта
07-06-2004, 13:49
Слушаю сейчас Ф,Сора....и прихожу к выводу, что ничего лучше классической гитары нет....Это что-то!!!:)

ПаМпУхА
07-06-2004, 14:01
Хех.так давно мечтала научиться играть на гитаре, без всяких сдач и сальфеджио, или как там.. просто играть, по аккоордам........ но....... не судьба видимо, вот сейчас восхищаюсь парнями, которые играют и поют ку тому же...... прям таю.......

Tims
07-06-2004, 19:37
Эх.... классика :D
------------------------------------------------
-----1-----1-----1-----1-----1-----1-----1-----1
---2-----2-----2-----2-----2-----2-----2-----2--
-2-----2-----2-----2-----2-----2-----2-----2----
-0----------------------------------------------
-------------------------3----------------------

------------------------------------------------
-----1-----1-----3-----3-----3-----1-----0-----0
---2-----2-----3-----3-----1-----2-----2-----1--
-3-----3-----3-----3-----2-----2-----2-----0----
-------------5----------------------------------
-1-----------------------0-----------0----------

-------------------0----0--0-----------------0----0
-----------1-----1-----1-------3-----3-----3-----3-
-2---2---2-----2-----2-------4-----4-----4-----4---
-2-2---2-----2-----2-------------2-----2-----2-----
-0-------------------------------------------------
---------------------------0-----------------------

-0-----------1-----------0-----------------3----
-----1-----1-----3-----3-----1-----1-3---0-----0
---2-----2-----2-----2-----0-----0-----0-----0--
-2-----2-----0-----3-----2-----2-----3-----3----
-0----------------------------------------------
-------------------------3-----------3----------

--------------------------------------------------
-1---1-----1-----1-----1--------------------------
---0-----0-----0-----0-------5-----5-----5-8---5-8
-2-----2-----2-----2-------5-----5-----5-----5----
-3-----------------------6-----6-----6-----6------
-------------------------8------------------------

-------------------------------------------------
-4-----------------4----4-4---------------1-3---1
-----6-----6-----6-----6------5-----5---2-----2--
---5-----5-----5-----5------6-----6---1-----0----
-------6-----6-----6------6-----6----------------
-6------------------------4-----3-----2----------

------------------------------------------------
-3-----------4-----1-----3-----------3----------
-----3-----3---0-2---0-2-----3-----3-----2-----2
---5-----5---1-----1-------5-----5-----4-----4--
-5-----5-----3-----------5-----5-----5-----5----
-3----------------------------------------------

-------------------3-----4-----------------2----
-----3-----3-----3-----3-----4-----4-----4-----4
---3-----3-----4-----4-----5-----5-----5-----5--
-5-----5-----5-----5-----5-----5-----5----------
-------------------------------3-----------3----
-3----------------------------------------------

-3-----------------3-----4-----------------2----
-----3-----3-----3-----3-----4-----4-----4-----4
---4-----4-----4-----4-----5-----5-----5-----5--
-5-----5-----5-----5-----5-----5-----5----------
-------------------------------3-----------3----
-3----------------------------------------------

-3-----------3-----------3---0-----0-1----------
-----3-----3-----------------------------3-----3
---4-----4-----3-6---3-6---2-----2-----2-----2--
-5-----5-----5-----5-----------5-----0-----3----
-------------------------4----------------------
-3-----------0----------------------------------

------------------------------------------------
-4-----------3----------------------------------
-----3-----3-----4-----4-------------2-----2----
---5-----5-----3-----3---7---3-----3-----2-----2
-------6-----5-----5-------5-----5-----5-----4--
-3-----------4-----------5-----5-----5-----5----

-------------------5----5-5-------0-----0---5----5
-----------------6-----6----5-8-----8-----8---5-8-
-----------7---7-----7----------------------------
-----7---7---7-----7------7-----7-----7-----7-----
---8---8------------------0-----------------------
10------------------------------------------------

-5-----------------5-----7---0-----0-----0-7---0
-----6-----6-9---------6------------------------
---7-----7-----7-9---7-----7-----7-----7-----7--
-7-----7-----------7-----6-----6-----6-----6----
-5----------------------------------------------
-------------7-----5-----4-----------------4----

-8-----------7-----5-----4----------------------
----10----10-0---9-----7-------5-----6---0-----0
---9-----9-----7-----5-------4-----4-------7----
10----10-----0-----7-------6-----6-----6-----6--
-0-----------------6----------------------------
-------------------------0----------------------

-------------------------------5-----8-----5----
-----0-----0-----0-----0-----5-----5-----5-----5
-------------------------5-5-----5-----5-----5--
---6-----6-----6-----6--------------------------
-------7-----8-----5----------------------------
-0-----------------------0----------------------

-------------------------------------------1---4
-------------1---------------------0---3-0---3--
-------2-----------2-----------1-----1----------
-----2-----2-----2-----2---3-0---3--------------
-3-3-----3-----3-----3---2----------------------
-0-----------------------0----------------------

-----------0---5---8-5-------------------------2
-------1-----1---5-----5---------------1---4-1--
---2-----2-------------------------2-----2------
-----2---------------------1---4-1---4----------
-3-----------------------0---3------------------
-0-----------------------0----------------------

-------------------4---7-4---1------------------
-------0-----0-6-----6-----3---0-3---0----------
---1-------7-----7-----------------1-----1------
-0---3---6-----------------------------3---0-3--
-----------------------------------------------2
-0----------------------------------------------

------------------------------------------------
------------------------------------------------
------------------------------------------------
-0---------0-3---0---0-3-----2-3-2-----0-3---0-3
-----2---------2---0-------5-------5-2-----0----
---4---1-4---------------4----------------------

------------------------------------------------
------------------------------------------------
-----------------------------------------2-----2
-----2-3-2-----0-3---0-3-----2-3-2--------------
---5-------5-1-----0-------5-------5-0-3---0-3--
-4-----------------------4-----------1----------

-------------------------------------------0----0
-----------------------------------1-----1-----1-
-----2-----2-----1-----1-2---2---2-----2-----2---
-0-3-----3-----2-----2-----2---2-----2-----2-----
-2-----2-----2-----2-----0-----------------------
-------------0-----------------------------------

-0-----------------0----0-0-----------1----------
-----3-----3-----3-----3------1-----1-----3-----3
---4-----4-----4-----4------2-----2-----2-----2--
-------2-----2-----2------2-----2-----0-----3----
--------------------------0----------------------
-0-----------------------------------------------

-0-----------------3-----------------------3----3
-----1-----1-3---0-----0-----------5-----5-----5-
---0-----0-----0-----0---5---5---5-----5-----5---
-2-----2-----3-----3-------5---5-----5-----5-----
-------------------------3-----------------------
-3-----------3-----------------------------------

-3---1-----1-----1-3---1-3-3---0-----0-4---0-5----
---3-----3-----3-----3-------1-----1-----3-------5
-0-----0-----0-----0-------0-----0-------------5--
---------------------------------------------7----
-2-------------------------3-----------2-----0----
--------------------------------------------------

-7---0-----0-8-----------6-----------4---0-----0
-0-----0--------10----10---3-6---3-6---3-----3--
---7-----7-----9-----9---3-----3-----1-----1----
------------10----10-----0----------------------
-------------0----------------------------------
-4-----------------------------------0----------

-5-----------------5-----6-----------------4---1
-----5-----5-----5-----5-----6-----6-----6---3--
---5-----5-----6-----6-----7-----7-----7---2----
-7-----7-----7-----7-----7-----7-----7-----0----
-0-----------------------------5-----3----------
------------------------------------------------

-5-----------------5-----6-----------------4---1
-----5-----5-----5-----5-----6-----6-----6---3--
---6-----6-----6-----6-----7-----7-----7---2----
-7-----7-----7-----7-----7-----7-----7-----0----
-0-----------------------------5-----3----------
------------------------------------------------

KuZaM
07-06-2004, 19:55
Я играю!!!! Если кому нужны какие табы, gtp и т.д. обращайтесь!

KuZaM
07-06-2004, 19:57
И еще какая КЛАССИКА!!!!!